Русский English Тэги View Sergey Zolotaryov's profile on LinkedIn Вход
Ленинградские акварели
Постоянная ссылка 22-07-2010 anydoby music Александр Дольский

len1.mp3len2.mp3


Здесь аккорды такие:  
  Dm Am* Am9+ Esus2 Hm7 Asus4  Am(v) Dsus4 Es2+  
1-5---5---8---7------7---5------5-----5-----7----  
2-6---5---5---7------7---5------5-----8-----7----  
3-5---5---5---9------7---7------5-----5-----10---  
4-7---7---7---9------9---7------7-----7-----9----  
5-0---0---0--(0)-----0---7------7-----0----------  
6-------------0------0---5------5-----------0----  
  
  Dm5- Amaj7  Am7 Am7#5 G7-5  G(iii) Cmaj9/g Cmaj7 Abmaj9b5  
1-5------5-----5---5-----3------3------3-------3-----3-------  
2-6------5-----5---6-----3------3------3-------5-----3-------  
3-5------5-----5---5-----6------4------4-------4-----3-------  
4-6------6-----5---5-----3------5------5-------5-----5-------  
5-0------0-----0---0-----5------5------3-------3-----3-------  
6------------------------3------3------3-------3-----4-------  
  
  Abmaj9#5 Bmaj13 C13 Dm/a  F/a  Am As4 F79/a F79*   F# F#s4  
1---3-------3------3---------------------(1)-----------2--2----  
2---5-------3------5----3-----1----1--3---1------3-----2--2----  
3---3-------3------3----2-----2----2--2---1------1-----3--4----  
4---5-------5------5----3-----3----2--2---1------1-----4--2----  
5---3-------3------3----0-----0----0--0---0------0-----4--4----  
6---4-------5------5-----------------------------------2--2----  
  
  G1 G2 G3 Gb1 Gb2Gb3 F1 F2 F3 E1  E2 E3  E4 E5  
1------------------------------------------------  
2------------------------------------------------  
3--4--5--7--4--5--7---4--5--7----------------9---  
4--5--5--5--4--4--4---3--3--3---10-9--10--9--9---  
5--0--0--0--0--0--0---0--0--0---9--9--8---8--7---  
6-------------------------------0--0--0---0--0---  
  
Вступление:  
    
Dm - Am* - Dm - Am* - Am9+ - Esus2 - Hm7  
Esus2 - Hm7 - Esus2 - Hm7 - Asus4 Am  
Asus4 - Am - Asus4 - Am - E1 E2  
E1 - E2 - E3 - E4 - E5 - 9 - 7 (лады на 4-й струне)  
Am* Dm Dsus4 Dm Am* - Hm7 Esus2 Es2+ Esus2 Hm7  
E1 -> E4  
Здесь уловить аккомпанемент просто, поэтому  
указываю только начало каждой строки  
припев играется, как вступление  
(не пугайтесь страшных названий аккордов, всё просто)  
  
  Am*Dm         Amaj7 Dm5-  
 Контуры чисты, блики негусты,  
 Am7 Am7#5      G7-5 G  
 крыши и мосты, арки...  
  Cmaj9 Cmaj7 Abmaj9b5 Abmaj9#5  
 Сонны берега, призрачна река,  
  Bmaj13 C13  Cmaj7 C (можно брать на 3-м или 7-м ладу)  
 замерли пока парки.  
  F/a Dm/a     Am  As4  
 Тихо проплыло тяжкое крыло,  
  F79/a F79*  F# F#s4  
 светлое чело или  
 G1 G2  G3 G2 G1 Gb1 Gb2 Gb3 Gb2 Gb1  
 в выси ветровой мальчик над Невой,  
 F1 F2 F3  F2 F1    10-9 (лады на 3-й струне)  
 ангел вестовой на шпиле.  
  
 Мимо Спаса, мимо Думы  
 я бреду путем знакомым,  
 мимо всадников угрюмых,  
 к бастиону Трубецкому.  
 Вдохновенья старых зодчих,  
 Петербурга привиденья,  
 дразнят память белой ночью  
 и влекут в свои владенья.  
  
 Грани берегов, ритмы облаков  
 в легкости штрихов застыли,  
 и воды слюда раздвоит всегда  
 лодки и суда на штиле.  
 Все без перемен - кадмий старых стен  
 и колодцев плен лиловый,  
 эхо и лучи множатся в ночи,  
 как орган звучит слово.  
  
 Розоватый дождь в апреле,  
 разноцветные соборы,  
 зимы в синей акварели,  
 в охре осени узоры.  
 Кто-то кистью, кто-то мыслью  
 измерял фарватер Леты,  
 кто-то честью, кто-то жизнью  
 расплатился за сюжеты.  
  

Добавить комментарий

Предыдущая статья Старики Следующая статья Молитва