Русский English Тэги View Sergey Zolotaryov's profile on LinkedIn Вход
Очарованный тобой
Постоянная ссылка 22-07-2010 anydoby music Аквариум, Борис Гребенщиков

spellbound.mp3spellbound2.mp3


Перед тем, как играть аккорды, изучите табулатуру.
Тут, конечно, я не стал описывать всех реверансов,
но толковый человек сам поймёт, что к чему, а для
нетолковых (no offence), пожалуй, больше подойдёт
"Колыбельная" (тоже на этой странице)
 Am             C
1-0-------------0----
2-1-------------1----
3-2-------------0--2-
4-2-------0-2-4-2----
5-0-0-2-3-------3----
6--------------------
 Am           G        Fm#
Очарованный тобой, мой лес,
    F          E
Ослепительный сад
 Am            G         Fm# F (также, как и первая строка)
Неподвижный и прямой все дни.
 Am    Em C   Es4  Ds2    Em
1-0-------0---------2-0---0---
2-1----0--1---------3---3-0---
3-2--4-0--0---0-2-0-2-----0---
4-2----2--2---2-----0-----2---
5-0----2--3---2-----------2---
6-------------0-----------0---
 Am      Em        C
Кто мог знать, что мы
     Es4       Ds2     Em
Никогда не вернемся назад,
 C       Am          D
Однажды выйдя из дверей.
Очарованный тобой, я ничего не скажу,
Между нами нет стекла и нечего бить
Кто мог знать, что нам будет нечего пить
Хотя вода течет в наших руках
 A            Fm#     E
1-------------2----------------
2-2-2-2-3-2-0-2-----2----------
3-2-2-2-2-2---2-2-2---1--------
4-2-----------4-------2-2--4-2-
5-0-----------4-------2--------
6-------------2------------0---
 A              Fm#            E          A Fm# C E
Скажи мне хоть слово, я хочу слышать тебя
(дальше очень простой проигрыш):
 C - D - F - G - F - G - F - G
 Am - Em - C - Es4 - Ds4 - Em
 C - Am - D
Я, оставленный один, беззащитен и смят
Этот выбор был за мной и я прав
Вот мой дом, мой ослепительный сад
И отражение ясных звезд
   G       C        G     C       G   C G...
В темной воде, в темной воде, в темной воде...
 
 

Добавить комментарий

Предыдущая статья Иван-чай Следующая статья Поколение дворников